ISO-10303-21;
HEADER;
FILE_DESCRIPTION (( 'STEP AP203' ),
    '1' );
FILE_NAME ('QB-CTZHWP-38.1-1550-M.STEP',
    '2020-12-24T01:37:19',
    ( '' ),
    ( '' ),
    'SwSTEP 2.0',
    'SolidWorks 2020',
    '' );
FILE_SCHEMA (( 'CONFIG_CONTROL_DESIGN' ));
ENDSEC;

DATA;
#1 = CYLINDRICAL_SURFACE ( 'NONE', #117, 25.39999999999999858 ) ;
#2 = APPROVAL_PERSON_ORGANIZATION ( #38, #132, #76 ) ;
#3 = VERTEX_POINT ( 'NONE', #148 ) ;
#4 = DIRECTION ( 'NONE',  ( -1.000000000000000000, 0.000000000000000000, -0.000000000000000000 ) ) ;
#5 = CC_DESIGN_PERSON_AND_ORGANIZATION_ASSIGNMENT ( #156, #144, ( #41 ) ) ;
#6 = ORIENTED_EDGE ( 'NONE', *, *, #106, .F. ) ;
#7 = DIRECTION ( 'NONE',  ( 0.000000000000000000, 0.000000000000000000, 1.000000000000000000 ) ) ;
#8 = PERSON_AND_ORGANIZATION ( #34, #146 ) ;
#9 = PERSON_AND_ORGANIZATION ( #34, #146 ) ;
#10 = CALENDAR_DATE ( 2020, 24, 12 ) ;
#11 = ADVANCED_FACE ( 'NONE', ( #58 ), #152, .F. ) ;
#12 = LOCAL_TIME ( 9, 37, 19.00000000000000000, #111 ) ;
#13 = CARTESIAN_POINT ( 'NONE',  ( -1.614212418857619014, 3.110602869834276865E-15, -25.39999999999999858 ) ) ;
#14 = DIRECTION ( 'NONE',  ( -1.000000000000000000, -0.000000000000000000, -0.000000000000000000 ) ) ;
#15 = PRODUCT ( 'QB-CTZHWP-38.1-1550-M', 'QB-CTZHWP-38.1-1550-M', '', ( #39 ) ) ;
#16 = EDGE_LOOP ( 'NONE', ( #17, #109, #72, #50 ) ) ;
#17 = ORIENTED_EDGE ( 'NONE', *, *, #130, .F. ) ;
#18 = DESIGN_CONTEXT ( 'detailed design', #110, 'design' ) ;
#19 = FACE_OUTER_BOUND ( 'NONE', #33, .T. ) ;
#20 = CALENDAR_DATE ( 2020, 24, 12 ) ;
#21 = DIRECTION ( 'NONE',  ( 1.000000000000000000, 0.000000000000000000, 0.000000000000000000 ) ) ;
#22 = PERSON_AND_ORGANIZATION ( #34, #146 ) ;
#23 = PERSON_AND_ORGANIZATION ( #34, #146 ) ;
#24 = DATE_TIME_ROLE ( 'classification_date' ) ;
#25 = DATE_TIME_ROLE ( 'creation_date' ) ;
#26 = CLOSED_SHELL ( 'NONE', ( #143, #11, #63, #43 ) ) ;
#27 =( GEOMETRIC_REPRESENTATION_CONTEXT ( 3 ) GLOBAL_UNCERTAINTY_ASSIGNED_CONTEXT ( ( #160 ) ) GLOBAL_UNIT_ASSIGNED_CONTEXT ( ( #142, #66, #126 ) ) REPRESENTATION_CONTEXT ( 'NONE', 'WORKASPACE' ) );
#28 = APPROVAL_STATUS ( 'not_yet_approved' ) ;
#29 = EDGE_CURVE ( 'NONE', #123, #121, #133, .T. ) ;
#30 = CARTESIAN_POINT ( 'NONE',  ( -3.000000000000001332, 19.05000000000000071, 0.000000000000000000 ) ) ;
#31 = DIRECTION ( 'NONE',  ( 0.000000000000000000, 0.000000000000000000, 1.000000000000000000 ) ) ;
#32 = DIRECTION ( 'NONE',  ( 0.000000000000000000, 0.000000000000000000, -1.000000000000000000 ) ) ;
#33 = EDGE_LOOP ( 'NONE', ( #85, #88 ) ) ;
#34 = PERSON ( 'UNSPECIFIED', 'UNSPECIFIED', 'UNSPECIFIED', ('UNSPECIFIED'), ('UNSPECIFIED'), ('UNSPECIFIED') ) ;
#35 = DIRECTION ( 'NONE',  ( 0.000000000000000000, 0.000000000000000000, 1.000000000000000000 ) ) ;
#36 = COORDINATED_UNIVERSAL_TIME_OFFSET ( 8, 0, .AHEAD. ) ;
#37 = APPROVAL_ROLE ( '' ) ;
#38 = PERSON_AND_ORGANIZATION ( #34, #146 ) ;
#39 = MECHANICAL_CONTEXT ( 'NONE', #122, 'mechanical' ) ;
#40 = APPROVAL ( #28, 'UNSPECIFIED' ) ;
#41 = PRODUCT_DEFINITION_FORMATION_WITH_SPECIFIED_SOURCE ( 'ANY', '', #15, .NOT_KNOWN. ) ;
#42 = PERSON_AND_ORGANIZATION ( #34, #146 ) ;
#43 = ADVANCED_FACE ( 'NONE', ( #19 ), #86, .F. ) ;
#44 = EDGE_LOOP ( 'NONE', ( #6, #150 ) ) ;
#45 = EDGE_CURVE ( 'NONE', #121, #3, #51, .T. ) ;
#46 = DIRECTION ( 'NONE',  ( -1.000000000000000000, -0.000000000000000000, -0.000000000000000000 ) ) ;
#47 = CARTESIAN_POINT ( 'NONE',  ( -1.614212418857619014, 0.000000000000000000, 0.000000000000000000 ) ) ;
#48 = AXIS2_PLACEMENT_3D ( 'NONE', #61, #62, #35 ) ;
#49 = LOCAL_TIME ( 9, 37, 19.00000000000000000, #36 ) ;
#50 = ORIENTED_EDGE ( 'NONE', *, *, #124, .F. ) ;
#51 = LINE ( 'NONE', #98, #93 ) ;
#52 = CALENDAR_DATE ( 2020, 24, 12 ) ;
#53 = DATE_AND_TIME ( #140, #169 ) ;
#54 = AXIS2_PLACEMENT_3D ( 'NONE', #108, #46, #7 ) ;
#55 = PRODUCT_RELATED_PRODUCT_CATEGORY ( 'detail', '', ( #15 ) ) ;
#56 = DIRECTION ( 'NONE',  ( 0.000000000000000000, 0.000000000000000000, 1.000000000000000000 ) ) ;
#57 = DIRECTION ( 'NONE',  ( -0.000000000000000000, 0.000000000000000000, 1.000000000000000000 ) ) ;
#58 = FACE_OUTER_BOUND ( 'NONE', #44, .T. ) ;
#59 = CARTESIAN_POINT ( 'NONE',  ( 3.000000000000001332, 19.05000000000000071, 0.000000000000000000 ) ) ;
#60 = CYLINDRICAL_SURFACE ( 'NONE', #163, 25.39999999999999858 ) ;
#61 = CARTESIAN_POINT ( 'NONE',  ( -3.000000000000000000, 0.000000000000000000, 0.000000000000000000 ) ) ;
#62 = DIRECTION ( 'NONE',  ( -1.000000000000000000, -0.000000000000000000, -0.000000000000000000 ) ) ;
#63 = ADVANCED_FACE ( 'NONE', ( #70 ), #60, .T. ) ;
#64 = APPROVAL_DATE_TIME ( #73, #132 ) ;
#65 = VECTOR ( 'NONE', #69, 1000.000000000000000 ) ;
#66 =( NAMED_UNIT ( * ) PLANE_ANGLE_UNIT ( ) SI_UNIT ( $, .RADIAN. ) );
#67 = AXIS2_PLACEMENT_3D ( 'NONE', #30, #149, #32 ) ;
#68 = CC_DESIGN_DATE_AND_TIME_ASSIGNMENT ( #90, #25, ( #84 ) ) ;
#69 = DIRECTION ( 'NONE',  ( -1.000000000000000000, -0.000000000000000000, -0.000000000000000000 ) ) ;
#70 = FACE_OUTER_BOUND ( 'NONE', #16, .T. ) ;
#71 = ORIENTED_EDGE ( 'NONE', *, *, #106, .T. ) ;
#72 = ORIENTED_EDGE ( 'NONE', *, *, #45, .T. ) ;
#73 = DATE_AND_TIME ( #20, #103 ) ;
#74 = AXIS2_PLACEMENT_3D ( 'NONE', #59, #4, #57 ) ;
#75 = APPLICATION_PROTOCOL_DEFINITION ( 'international standard', 'config_control_design', 1994, #122 ) ;
#76 = APPROVAL_ROLE ( '' ) ;
#77 = APPROVAL_STATUS ( 'not_yet_approved' ) ;
#78 = DIRECTION ( 'NONE',  ( 0.000000000000000000, 0.000000000000000000, 1.000000000000000000 ) ) ;
#79 = DATE_AND_TIME ( #10, #145 ) ;
#80 = CC_DESIGN_SECURITY_CLASSIFICATION ( #83, ( #41 ) ) ;
#81 = APPLICATION_PROTOCOL_DEFINITION ( 'international standard', 'config_control_design', 1994, #110 ) ;
#82 = DATE_AND_TIME ( #52, #49 ) ;
#83 = SECURITY_CLASSIFICATION ( '', '', #159 ) ;
#84 = PRODUCT_DEFINITION ( 'UNKNOWN', '', #41, #18 ) ;
#85 = ORIENTED_EDGE ( 'NONE', *, *, #174, .T. ) ;
#86 = PLANE ( 'NONE',  #67 ) ;
#87 = CC_DESIGN_PERSON_AND_ORGANIZATION_ASSIGNMENT ( #42, #139, ( #83 ) ) ;
#88 = ORIENTED_EDGE ( 'NONE', *, *, #124, .T. ) ;
#89 = APPROVAL_DATE_TIME ( #53, #162 ) ;
#90 = DATE_AND_TIME ( #171, #12 ) ;
#91 = COORDINATED_UNIVERSAL_TIME_OFFSET ( 8, 0, .AHEAD. ) ;
#92 = CC_DESIGN_APPROVAL ( #162, ( #84 ) ) ;
#93 = VECTOR ( 'NONE', #107, 1000.000000000000000 ) ;
#94 = ORIENTED_EDGE ( 'NONE', *, *, #45, .F. ) ;
#95 = PRODUCT_DEFINITION_SHAPE ( 'NONE', 'NONE',  #84 ) ;
#96 = CARTESIAN_POINT ( 'NONE',  ( -1.614212418857619014, 0.000000000000000000, 0.000000000000000000 ) ) ;
#97 = LINE ( 'NONE', #13, #65 ) ;
#98 = CARTESIAN_POINT ( 'NONE',  ( -1.614212418857619014, 0.000000000000000000, 25.39999999999999858 ) ) ;
#99 = CARTESIAN_POINT ( 'NONE',  ( -3.000000000000000000, 0.000000000000000000, 0.000000000000000000 ) ) ;
#100 = APPROVAL_DATE_TIME ( #82, #40 ) ;
#101 = CIRCLE ( 'NONE', #54, 25.39999999999999858 ) ;
#102 = PERSON_AND_ORGANIZATION_ROLE ( 'design_supplier' ) ;
#103 = LOCAL_TIME ( 9, 37, 19.00000000000000000, #113 ) ;
#104 = APPROVAL_PERSON_ORGANIZATION ( #8, #40, #154 ) ;
#105 = DIRECTION ( 'NONE',  ( -1.000000000000000000, -0.000000000000000000, -0.000000000000000000 ) ) ;
#106 = EDGE_CURVE ( 'NONE', #121, #123, #101, .T. ) ;
#107 = DIRECTION ( 'NONE',  ( -1.000000000000000000, -0.000000000000000000, -0.000000000000000000 ) ) ;
#108 = CARTESIAN_POINT ( 'NONE',  ( 3.000000000000000000, 0.000000000000000000, 0.000000000000000000 ) ) ;
#109 = ORIENTED_EDGE ( 'NONE', *, *, #29, .T. ) ;
#110 = APPLICATION_CONTEXT ( 'configuration controlled 3d designs of mechanical parts and assemblies' ) ;
#111 = COORDINATED_UNIVERSAL_TIME_OFFSET ( 8, 0, .AHEAD. ) ;
#112 = AXIS2_PLACEMENT_3D ( 'NONE', #99, #134, #125 ) ;
#113 = COORDINATED_UNIVERSAL_TIME_OFFSET ( 8, 0, .AHEAD. ) ;
#114 = CC_DESIGN_PERSON_AND_ORGANIZATION_ASSIGNMENT ( #115, #172, ( #15 ) ) ;
#115 = PERSON_AND_ORGANIZATION ( #34, #146 ) ;
#116 = MANIFOLD_SOLID_BREP ( 'Ðý×', #26 ) ;
#117 = AXIS2_PLACEMENT_3D ( 'NONE', #96, #120, #56 ) ;
#118 = AXIS2_PLACEMENT_3D ( 'NONE', #155, #78, #21 ) ;
#119 = FACE_OUTER_BOUND ( 'NONE', #135, .T. ) ;
#120 = DIRECTION ( 'NONE',  ( -1.000000000000000000, -0.000000000000000000, -0.000000000000000000 ) ) ;
#121 = VERTEX_POINT ( 'NONE', #166 ) ;
#122 = APPLICATION_CONTEXT ( 'configuration controlled 3d designs of mechanical parts and assemblies' ) ;
#123 = VERTEX_POINT ( 'NONE', #138 ) ;
#124 = EDGE_CURVE ( 'NONE', #136, #3, #153, .T. ) ;
#125 = DIRECTION ( 'NONE',  ( 0.000000000000000000, 0.000000000000000000, 1.000000000000000000 ) ) ;
#126 =( NAMED_UNIT ( * ) SI_UNIT ( $, .STERADIAN. ) SOLID_ANGLE_UNIT ( ) );
#127 = PERSON_AND_ORGANIZATION_ROLE ( 'creator' ) ;
#128 = CC_DESIGN_PERSON_AND_ORGANIZATION_ASSIGNMENT ( #23, #127, ( #84 ) ) ;
#129 = COORDINATED_UNIVERSAL_TIME_OFFSET ( 8, 0, .AHEAD. ) ;
#130 = EDGE_CURVE ( 'NONE', #123, #136, #97, .T. ) ;
#131 = CC_DESIGN_APPROVAL ( #40, ( #41 ) ) ;
#132 = APPROVAL ( #77, 'UNSPECIFIED' ) ;
#133 = CIRCLE ( 'NONE', #141, 25.39999999999999858 ) ;
#134 = DIRECTION ( 'NONE',  ( -1.000000000000000000, -0.000000000000000000, -0.000000000000000000 ) ) ;
#135 = EDGE_LOOP ( 'NONE', ( #71, #164, #168, #94 ) ) ;
#136 = VERTEX_POINT ( 'NONE', #137 ) ;
#137 = CARTESIAN_POINT ( 'NONE',  ( -3.000000000000000000, 3.110602869834276865E-15, -25.39999999999999858 ) ) ;
#138 = CARTESIAN_POINT ( 'NONE',  ( 3.000000000000000000, 3.110602869834276865E-15, -25.39999999999999858 ) ) ;
#139 = PERSON_AND_ORGANIZATION_ROLE ( 'classification_officer' ) ;
#140 = CALENDAR_DATE ( 2020, 24, 12 ) ;
#141 = AXIS2_PLACEMENT_3D ( 'NONE', #165, #14, #31 ) ;
#142 =( LENGTH_UNIT ( ) NAMED_UNIT ( * ) SI_UNIT ( .MILLI., .METRE. ) );
#143 = ADVANCED_FACE ( 'NONE', ( #119 ), #1, .T. ) ;
#144 = PERSON_AND_ORGANIZATION_ROLE ( 'creator' ) ;
#145 = LOCAL_TIME ( 9, 37, 19.00000000000000000, #91 ) ;
#146 = ORGANIZATION ( 'UNSPECIFIED', 'UNSPECIFIED', '' ) ;
#147 = CC_DESIGN_PERSON_AND_ORGANIZATION_ASSIGNMENT ( #22, #102, ( #41 ) ) ;
#148 = CARTESIAN_POINT ( 'NONE',  ( -3.000000000000000000, 0.000000000000000000, 25.39999999999999858 ) ) ;
#149 = DIRECTION ( 'NONE',  ( 1.000000000000000000, 0.000000000000000000, 0.000000000000000000 ) ) ;
#150 = ORIENTED_EDGE ( 'NONE', *, *, #29, .F. ) ;
#151 = APPROVAL_PERSON_ORGANIZATION ( #9, #162, #37 ) ;
#152 = PLANE ( 'NONE',  #74 ) ;
#153 = CIRCLE ( 'NONE', #112, 25.39999999999999858 ) ;
#154 = APPROVAL_ROLE ( '' ) ;
#155 = CARTESIAN_POINT ( 'NONE',  ( 0.000000000000000000, 0.000000000000000000, 0.000000000000000000 ) ) ;
#156 = PERSON_AND_ORGANIZATION ( #34, #146 ) ;
#157 = APPROVAL_STATUS ( 'not_yet_approved' ) ;
#158 = CC_DESIGN_APPROVAL ( #132, ( #83 ) ) ;
#159 = SECURITY_CLASSIFICATION_LEVEL ( 'unclassified' ) ;
#160 = UNCERTAINTY_MEASURE_WITH_UNIT (LENGTH_MEASURE( 1.000000000000000082E-05 ), #142, 'distance_accuracy_value', 'NONE');
#161 = CIRCLE ( 'NONE', #48, 25.39999999999999858 ) ;
#162 = APPROVAL ( #157, 'UNSPECIFIED' ) ;
#163 = AXIS2_PLACEMENT_3D ( 'NONE', #47, #105, #170 ) ;
#164 = ORIENTED_EDGE ( 'NONE', *, *, #130, .T. ) ;
#165 = CARTESIAN_POINT ( 'NONE',  ( 3.000000000000000000, 0.000000000000000000, 0.000000000000000000 ) ) ;
#166 = CARTESIAN_POINT ( 'NONE',  ( 3.000000000000000000, 0.000000000000000000, 25.39999999999999858 ) ) ;
#167 = CC_DESIGN_DATE_AND_TIME_ASSIGNMENT ( #79, #24, ( #83 ) ) ;
#168 = ORIENTED_EDGE ( 'NONE', *, *, #174, .F. ) ;
#169 = LOCAL_TIME ( 9, 37, 19.00000000000000000, #129 ) ;
#170 = DIRECTION ( 'NONE',  ( 0.000000000000000000, 0.000000000000000000, 1.000000000000000000 ) ) ;
#171 = CALENDAR_DATE ( 2020, 24, 12 ) ;
#172 = PERSON_AND_ORGANIZATION_ROLE ( 'design_owner' ) ;
#173 = SHAPE_DEFINITION_REPRESENTATION ( #95, #175 ) ;
#174 = EDGE_CURVE ( 'NONE', #3, #136, #161, .T. ) ;
#175 = ADVANCED_BREP_SHAPE_REPRESENTATION ( 'QB-CTZHWP-38.1-1550-M', ( #116, #118 ), #27 ) ;
ENDSEC;
END-ISO-10303-21;
